  0
SECTION
  2
HEADER
  9
$ACADVER
  1
AC1015
  9
$ACADMAINTVER
 70
     6
  9
$DWGCODEPAGE
  3
ANSI_1254
  9
$INSBASE
 10
0.0
 20
0.0
 30
0.0
  9
$EXTMIN
 10
0.0
 20
0.0
 30
0.0
  9
$EXTMAX
 10
279.4
 20
215.9
 30
0.0
  9
$LIMMIN
 10
0.0
 20
0.0
  9
$LIMMAX
 10
279.4
 20
215.9
  9
$ORTHOMODE
 70
     0
  9
$REGENMODE
 70
     1
  9
$FILLMODE
 70
     1
  9
$QTEXTMODE
 70
     0
  9
$MIRRTEXT
 70
     1
  9
$LTSCALE
 40
1.0
  9
$ATTMODE
 70
     1
  9
$TEXTSIZE
 40
3.5
  9
$TRACEWID
 40
1.0
  9
$TEXTSTYLE
  7
Standard
  9
$CLAYER
  8
0
  9
$CELTYPE
  6
ByLayer
  9
$CECOLOR
 62
   256
  9
$CELTSCALE
 40
1.0
  9
$DISPSILH
 70
     0
  9
$DIMSCALE
 40
1.0
  9
$DIMASZ
 40
3.5
  9
$DIMEXO
 40
1.0
  9
$DIMDLI
 40
3.75
  9
$DIMRND
 40
0.0
  9
$DIMDLE
 40
0.0
  9
$DIMEXE
 40
1.0
  9
$DIMTP
 40
0.0
  9
$DIMTM
 40
0.0
  9
$DIMTXT
 40
3.5
  9
$DIMCEN
 40
2.5
  9
$DIMTSZ
 40
0.0
  9
$DIMTOL
 70
     0
  9
$DIMLIM
 70
     0
  9
$DIMTIH
 70
     1
  9
$DIMTOH
 70
     1
  9
$DIMSE1
 70
     0
  9
$DIMSE2
 70
     0
  9
$DIMTAD
 70
     1
  9
$DIMZIN
 70
     0
  9
$DIMBLK
  1

  9
$DIMASO
 70
     1
  9
$DIMSHO
 70
     1
  9
$DIMPOST
  1

  9
$DIMAPOST
  1

  9
$DIMALT
 70
     0
  9
$DIMALTD
 70
     3
  9
$DIMALTF
 40
0.0393700787
  9
$DIMLFAC
 40
1.0
  9
$DIMTOFL
 70
     1
  9
$DIMTVP
 40
0.0
  9
$DIMTIX
 70
     0
  9
$DIMSOXD
 70
     0
  9
$DIMSAH
 70
     0
  9
$DIMBLK1
  1

  9
$DIMBLK2
  1

  9
$DIMSTYLE
  2
ISO-25
  9
$DIMCLRD
 70
     0
  9
$DIMCLRE
 70
     0
  9
$DIMCLRT
 70
     0
  9
$DIMTFAC
 40
1.0
  9
$DIMGAP
 40
1.524
  9
$DIMJUST
 70
     0
  9
$DIMSD1
 70
     0
  9
$DIMSD2
 70
     0
  9
$DIMTOLJ
 70
     0
  9
$DIMTZIN
 70
     0
  9
$DIMALTZ
 70
     0
  9
$DIMALTTZ
 70
     0
  9
$DIMUPT
 70
     0
  9
$DIMDEC
 70
     2
  9
$DIMTDEC
 70
     2
  9
$DIMALTU
 70
     2
  9
$DIMALTTD
 70
     3
  9
$DIMTXSTY
  7
Standard
  9
$DIMAUNIT
 70
     0
  9
$DIMADEC
 70
     2
  9
$DIMALTRND
 40
0.0
  9
$DIMAZIN
 70
     0
  9
$DIMDSEP
 70
    44
  9
$DIMATFIT
 70
     3
  9
$DIMFRAC
 70
     0
  9
$DIMLDRBLK
  1

  9
$DIMLUNIT
 70
     2
  9
$DIMLWD
 70
    -2
  9
$DIMLWE
 70
    -2
  9
$DIMTMOVE
 70
     0
  9
$LUNITS
 70
     2
  9
$LUPREC
 70
     2
  9
$SKETCHINC
 40
1.0
  9
$FILLETRAD
 40
10.0
  9
$AUNITS
 70
     0
  9
$AUPREC
 70
     2
  9
$MENU
  1
.
  9
$ELEVATION
 40
0.0
  9
$PELEVATION
 40
0.0
  9
$THICKNESS
 40
0.0
  9
$LIMCHECK
 70
     0
  9
$CHAMFERA
 40
0.0
  9
$CHAMFERB
 40
0.0
  9
$CHAMFERC
 40
0.0
  9
$CHAMFERD
 40
0.0
  9
$SKPOLY
 70
     0
  9
$TDCREATE
 40
2460697.540921042
  9
$TDUCREATE
 40
2460697.415921042
  9
$TDUPDATE
 40
2460697.540921169
  9
$TDUUPDATE
 40
2460697.415921169
  9
$TDINDWG
 40
0.0000000116
  9
$TDUSRTIMER
 40
0.0000000116
  9
$USRTIMER
 70
     1
  9
$ANGBASE
 50
0.0
  9
$ANGDIR
 70
     0
  9
$PDMODE
 70
     0
  9
$PDSIZE
 40
-1.0
  9
$PLINEWID
 40
0.0
  9
$SPLFRAME
 70
     0
  9
$SPLINETYPE
 70
     6
  9
$SPLINESEGS
 70
     8
  9
$HANDSEED
  5
B2
  9
$SURFTAB1
 70
     6
  9
$SURFTAB2
 70
     6
  9
$SURFTYPE
 70
     6
  9
$SURFU
 70
     6
  9
$SURFV
 70
     6
  9
$UCSBASE
  2

  9
$UCSNAME
  2

  9
$UCSORG
 10
0.0
 20
0.0
 30
0.0
  9
$UCSXDIR
 10
1.0
 20
0.0
 30
0.0
  9
$UCSYDIR
 10
0.0
 20
1.0
 30
0.0
  9
$UCSORTHOREF
  2

  9
$UCSORTHOVIEW
 70
     0
  9
$UCSORGTOP
 10
0.0
 20
0.0
 30
0.0
  9
$UCSORGBOTTOM
 10
0.0
 20
0.0
 30
0.0
  9
$UCSORGLEFT
 10
0.0
 20
0.0
 30
0.0
  9
$UCSORGRIGHT
 10
0.0
 20
0.0
 30
0.0
  9
$UCSORGFRONT
 10
0.0
 20
0.0
 30
0.0
  9
$UCSORGBACK
 10
0.0
 20
0.0
 30
0.0
  9
$PUCSBASE
  2

  9
$PUCSNAME
  2

  9
$PUCSORG
 10
0.0
 20
0.0
 30
0.0
  9
$PUCSXDIR
 10
1.0
 20
0.0
 30
0.0
  9
$PUCSYDIR
 10
0.0
 20
1.0
 30
0.0
  9
$PUCSORTHOREF
  2

  9
$PUCSORTHOVIEW
 70
     0
  9
$PUCSORGTOP
 10
0.0
 20
0.0
 30
0.0
  9
$PUCSORGBOTTOM
 10
0.0
 20
0.0
 30
0.0
  9
$PUCSORGLEFT
 10
0.0
 20
0.0
 30
0.0
  9
$PUCSORGRIGHT
 10
0.0
 20
0.0
 30
0.0
  9
$PUCSORGFRONT
 10
0.0
 20
0.0
 30
0.0
  9
$PUCSORGBACK
 10
0.0
 20
0.0
 30
0.0
  9
$USERI1
 70
     0
  9
$USERI2
 70
     0
  9
$USERI3
 70
     0
  9
$USERI4
 70
     0
  9
$USERI5
 70
     0
  9
$USERR1
 40
0.0
  9
$USERR2
 40
0.0
  9
$USERR3
 40
0.0
  9
$USERR4
 40
0.0
  9
$USERR5
 40
0.0
  9
$WORLDVIEW
 70
     1
  9
$SHADEDGE
 70
     3
  9
$SHADEDIF
 70
    70
  9
$TILEMODE
 70
     1
  9
$MAXACTVP
 70
    64
  9
$PINSBASE
 10
0.0
 20
0.0
 30
0.0
  9
$PLIMCHECK
 70
     0
  9
$PEXTMIN
 10
1.0000000000E+20
 20
1.0000000000E+20
 30
1.0000000000E+20
  9
$PEXTMAX
 10
-1.0000000000E+20
 20
-1.0000000000E+20
 30
-1.0000000000E+20
  9
$PLIMMIN
 10
0.0
 20
0.0
  9
$PLIMMAX
 10
420.0
 20
297.0
  9
$UNITMODE
 70
     0
  9
$VISRETAIN
 70
     1
  9
$PLINEGEN
 70
     0
  9
$PSLTSCALE
 70
     1
  9
$TREEDEPTH
 70
  3020
  9
$CMLSTYLE
  2
Standard
  9
$CMLJUST
 70
     0
  9
$CMLSCALE
 40
20.0
  9
$PROXYGRAPHICS
 70
     1
  9
$MEASUREMENT
 70
     1
  9
$CELWEIGHT
370
    -1
  9
$ENDCAPS
280
     0
  9
$JOINSTYLE
280
     0
  9
$LWDISPLAY
290
     1
  9
$INSUNITS
 70
     4
  9
$HYPERLINKBASE
  1

  9
$STYLESHEET
  1

  9
$XEDIT
290
     1
  9
$CEPSNTYPE
380
     0
  9
$PSTYLEMODE
290
     1
  9
$FINGERPRINTGUID
  2
{d023d892-77df-48b0-a597-1bd96c163bfc}
  9
$VERSIONGUID
  2
{FAEB1C32-E019-11D5-929B-00C0DF256EC4}
  9
$EXTNAMES
290
     1
  9
$PSVPSCALE
 40
0.0
  9
$OLESTARTUP
290
     0
  0
ENDSEC
  0
SECTION
  2
CLASSES
  0
CLASS
  1
ACDBDICTIONARYWDFLT
  2
AcDbDictionaryWithDefault
  3
ObjectDBX Classes
 90
        0
280
     0
281
     0
  0
CLASS
  1
VISUALSTYLE
  2
AcDbVisualStyle
  3
ObjectDBX Classes
 90
     4095
280
     0
281
     0
  0
CLASS
  1
MATERIAL
  2
AcDbMaterial
  3
ObjectDBX Classes
 90
     1153
280
     0
281
     0
  0
CLASS
  1
SCALE
  2
AcDbScale
  3
ObjectDBX Classes
 90
     1153
280
     0
281
     0
  0
CLASS
  1
TABLESTYLE
  2
AcDbTableStyle
  3
ObjectDBX Classes
 90
     4095
280
     0
281
     0
  0
CLASS
  1
MLEADERSTYLE
  2
AcDbMLeaderStyle
  3
ACDB_MLEADERSTYLE_CLASS
 90
     4095
280
     0
281
     0
  0
CLASS
  1
SUN
  2
AcDbSun
  3
SCENEOE
 90
     1153
280
     0
281
     0
  0
CLASS
  1
ACDBPLACEHOLDER
  2
AcDbPlaceHolder
  3
ObjectDBX Classes
 90
        0
280
     0
281
     0
  0
CLASS
  1
LAYOUT
  2
AcDbLayout
  3
ObjectDBX Classes
 90
        0
280
     0
281
     0
  0
ENDSEC
  0
SECTION
  2
TABLES
  0
TABLE
  2
VPORT
  5
8
330
0
100
AcDbSymbolTable
 70
     1
  0
VPORT
  5
29
330
8
100
AcDbSymbolTableRecord
100
AcDbViewportTableRecord
  2
*Active
 70
     0
 10
0.0
 20
0.0
 11
1.0
 21
1.0
 12
139.7
 22
107.95
 13
0.0
 23
0.0
 14
10.0
 24
10.0
 15
10.0
 25
10.0
 16
0.0
 26
0.0
 36
1.0
 17
0.0
 27
0.0
 37
0.0
 40
215.9
 41
1.2941176471
 42
50.0
 43
0.0
 44
0.0
 50
0.0
 51
0.0
 71
     0
 72
  2000
 73
     1
 74
     3
 75
     0
 76
     0
 77
     0
 78
     0
281
     0
 65
     1
110
0.0
120
0.0
130
0.0
111
1.0
121
0.0
131
0.0
112
0.0
122
1.0
132
0.0
 79
     0
146
0.0
  0
ENDTAB
  0
TABLE
  2
LTYPE
  5
5
330
0
100
AcDbSymbolTable
 70
     6
  0
LTYPE
  5
14
330
5
100
AcDbSymbolTableRecord
100
AcDbLinetypeTableRecord
  2
ByBlock
 70
     0
  3

 72
    65
 73
     0
 40
0.0
  0
LTYPE
  5
15
330
5
100
AcDbSymbolTableRecord
100
AcDbLinetypeTableRecord
  2
ByLayer
 70
     0
  3

 72
    65
 73
     0
 40
0.0
  0
LTYPE
  5
16
330
5
100
AcDbSymbolTableRecord
100
AcDbLinetypeTableRecord
  2
Continuous
 70
     0
  3
Solid line
 72
    65
 73
     0
 40
0.0
  0
LTYPE
  5
6E
330
5
100
AcDbSymbolTableRecord
100
AcDbLinetypeTableRecord
  2
HIDDEN
 70
     0
  3
Hidden __ __ __ __ __ __ __ __ __ __ __ __ __ __
 72
    65
 73
     2
 40
1.905
 49
1.27
 74
     0
 49
-0.635
 74
     0
  0
LTYPE
  5
6F
330
5
100
AcDbSymbolTableRecord
100
AcDbLinetypeTableRecord
  2
PHANTOM
 70
     0
  3
Phantom ______  __  __  ______  __  __  ______
 72
    65
 73
     6
 40
12.7
 49
6.35
 74
     0
 49
-1.27
 74
     0
 49
1.27
 74
     0
 49
-1.27
 74
     0
 49
1.27
 74
     0
 49
-1.27
 74
     0
  0
LTYPE
  5
70
330
5
100
AcDbSymbolTableRecord
100
AcDbLinetypeTableRecord
  2
CENTER
 70
     0
  3
Center ____ _ ____ _ ____ _ ____ _ ____ _ ____
 72
    65
 73
     4
 40
10.16
 49
6.35
 74
     0
 49
-1.27
 74
     0
 49
1.27
 74
     0
 49
-1.27
 74
     0
  0
LTYPE
  5
71
330
5
100
AcDbSymbolTableRecord
100
AcDbLinetypeTableRecord
  2
CENTERX2
 70
     0
  3
Center (2x) ________  __  ________  __  _____
 72
    65
 73
     4
 40
20.32
 49
12.7
 74
     0
 49
-2.54
 74
     0
 49
2.54
 74
     0
 49
-2.54
 74
     0
  0
LTYPE
  5
72
330
5
100
AcDbSymbolTableRecord
100
AcDbLinetypeTableRecord
  2
DOT2
 70
     0
  3
Dot (.5x) ........................................
 72
    65
 73
     2
 40
0.635
 49
0.0
 74
     0
 49
-0.635
 74
     0
  0
ENDTAB
  0
TABLE
  2
LAYER
  5
2
330
0
100
AcDbSymbolTable
 70
    17
  0
LAYER
  5
10
330
2
100
AcDbSymbolTableRecord
100
AcDbLayerTableRecord
  2
0
 70
     0
 62
     7
  6
Continuous
370
    -3
390
F
  0
LAYER
  5
73
330
2
100
AcDbSymbolTableRecord
100
AcDbLayerTableRecord
  2
FORMAT
 70
     0
 62
     7
  6
Continuous
370
    -3
390
F
  0
LAYER
  5
74
330
2
100
AcDbSymbolTableRecord
100
AcDbLayerTableRecord
  2
YARDIMCI_GEOMETRI
 70
     0
 62
    -6
  6
Continuous
290
     0
370
    -3
390
F
  0
LAYER
  5
75
330
2
100
AcDbSymbolTableRecord
100
AcDbLayerTableRecord
  2
SAYFA_CERCEVESI
 70
     0
 62
     7
  6
Continuous
370
    25
390
F
  0
LAYER
  5
76
330
2
100
AcDbSymbolTableRecord
100
AcDbLayerTableRecord
  2
ANTET
 70
     0
 62
     7
  6
Continuous
370
    -3
390
F
  0
LAYER
  5
77
330
2
100
AcDbSymbolTableRecord
100
AcDbLayerTableRecord
  2
OLCU
 70
     0
 62
   150
  6
Continuous
370
    -3
390
F
  0
LAYER
  5
78
330
2
100
AcDbSymbolTableRecord
100
AcDbLayerTableRecord
  2
METIN
 70
     0
 62
    96
  6
Continuous
370
    -3
390
F
  0
LAYER
  5
79
330
2
100
AcDbSymbolTableRecord
100
AcDbLayerTableRecord
  2
BALON
 70
     0
 62
     5
  6
Continuous
370
    -3
390
F
  0
LAYER
  5
7A
330
2
100
AcDbSymbolTableRecord
100
AcDbLayerTableRecord
  2
VURGU
 70
     0
 62
     7
  6
Continuous
370
    -3
390
F
  0
LAYER
  5
7B
330
2
100
AcDbSymbolTableRecord
100
AcDbLayerTableRecord
  2
SILIK
 70
     0
 62
     7
  6
Continuous
370
    -3
390
F
  0
LAYER
  5
7C
330
2
100
AcDbSymbolTableRecord
100
AcDbLayerTableRecord
  2
MODEL
 70
     0
 62
     7
  6
Continuous
370
    -3
390
F
  0
LAYER
  5
7D
330
2
100
AcDbSymbolTableRecord
100
AcDbLayerTableRecord
  2
DETAYLANDıRMA
 70
     0
 62
   190
  6
Continuous
370
    -3
390
F
  0
LAYER
  5
7E
330
2
100
AcDbSymbolTableRecord
100
AcDbLayerTableRecord
  2
TOLERANS
 70
     0
 62
   230
  6
Continuous
370
    -3
390
F
  0
LAYER
  5
7F
330
2
100
AcDbSymbolTableRecord
100
AcDbLayerTableRecord
  2
MERKEZ_CIZGILERI
 70
     0
 62
    30
  6
Continuous
370
    -3
390
F
  0
LAYER
  5
80
330
2
100
AcDbSymbolTableRecord
100
AcDbLayerTableRecord
  2
KESIT-DETAY_CIZGILERI
 70
     0
 62
     7
  6
Continuous
370
    -3
390
F
  0
LAYER
  5
81
330
2
100
AcDbSymbolTableRecord
100
AcDbLayerTableRecord
  2
\U+041E\U+0421\U+0415\U+0412\U+042B\U+0415
 70
     0
 62
     7
  6
Continuous
370
    -3
390
F
  0
LAYER
  5
82
330
2
100
AcDbSymbolTableRecord
100
AcDbLayerTableRecord
  2
\U+0412\U+041E\U+0414\U+042F\U+041D\U+042B\U+0415_\U+0417\U+041D\U+0410\U+041A\U+0418
 70
     0
 62
    11
  6
Continuous
370
    -3
390
F
  0
ENDTAB
  0
TABLE
  2
STYLE
  5
3
330
0
100
AcDbSymbolTable
 70
     1
  0
STYLE
  5
11
330
3
100
AcDbSymbolTableRecord
100
AcDbTextStyleTableRecord
  2
Standard
 70
     0
 40
0.0
 41
1.0
 50
0.0
 71
     0
 42
3.5
  3
txt
  4

  0
ENDTAB
  0
TABLE
  2
VIEW
  5
6
330
0
100
AcDbSymbolTable
 70
     0
  0
ENDTAB
  0
TABLE
  2
UCS
  5
7
330
0
100
AcDbSymbolTable
 70
     0
  0
ENDTAB
  0
TABLE
  2
APPID
  5
9
330
0
100
AcDbSymbolTable
 70
     1
  0
APPID
  5
12
330
9
100
AcDbSymbolTableRecord
100
AcDbRegAppTableRecord
  2
ACAD
 70
     0
  0
ENDTAB
  0
TABLE
  2
DIMSTYLE
  5
A
330
0
100
AcDbSymbolTable
 70
     1
100
AcDbDimStyleTable
  0
DIMSTYLE
105
27
330
A
100
AcDbSymbolTableRecord
100
AcDbDimStyleTableRecord
  2
ISO-25
 70
     0
 41
2.5
 42
0.625
 43
3.75
 44
1.25
 73
     0
 74
     0
 77
     1
 78
     8
140
2.5
141
2.5
143
0.0393700787
147
0.625
171
     3
172
     1
178
     0
271
     2
272
     2
274
     3
278
    44
283
     0
284
     8
340
11
  0
ENDTAB
  0
TABLE
  2
BLOCK_RECORD
  5
1
330
0
100
AcDbSymbolTable
 70
     2
  0
BLOCK_RECORD
  5
1F
330
1
100
AcDbSymbolTableRecord
100
AcDbBlockTableRecord
  2
*Model_Space
340
22
  0
BLOCK_RECORD
  5
1B
330
1
100
AcDbSymbolTableRecord
100
AcDbBlockTableRecord
  2
*Paper_Space
340
1E
  0
BLOCK_RECORD
  5
23
330
1
100
AcDbSymbolTableRecord
100
AcDbBlockTableRecord
  2
*Paper_Space0
340
26
  0
BLOCK_RECORD
  5
85
330
1
100
AcDbSymbolTableRecord
100
AcDbBlockTableRecord
  2
SW_CENTERMARKSYMBOL_0
340
0
102
{BLKREFS
331
90
102
}
  0
ENDTAB
  0
ENDSEC
  0
SECTION
  2
BLOCKS
  0
BLOCK
  5
20
330
1F
100
AcDbEntity
  8
0
100
AcDbBlockBegin
  2
*Model_Space
 70
     0
 10
0.0
 20
0.0
 30
0.0
  3
*Model_Space
  1

  0
ENDBLK
  5
21
330
1F
100
AcDbEntity
  8
0
100
AcDbBlockEnd
  0
BLOCK
  5
1C
330
1B
100
AcDbEntity
 67
     1
  8
0
100
AcDbBlockBegin
  2
*Paper_Space
 70
     0
 10
0.0
 20
0.0
 30
0.0
  3
*Paper_Space
  1

  0
ENDBLK
  5
1D
330
1B
100
AcDbEntity
 67
     1
  8
0
100
AcDbBlockEnd
  0
BLOCK
  5
24
330
23
100
AcDbEntity
  8
0
100
AcDbBlockBegin
  2
*Paper_Space0
 70
     0
 10
0.0
 20
0.0
 30
0.0
  3
*Paper_Space0
  1

  0
ENDBLK
  5
25
330
23
100
AcDbEntity
  8
0
100
AcDbBlockEnd
  0
BLOCK
  5
86
330
85
100
AcDbEntity
  8
0
100
AcDbBlockBegin
  2
SW_CENTERMARKSYMBOL_0
 70
     0
 10
0.0
 20
0.0
 30
0.0
  3
SW_CENTERMARKSYMBOL_0
  1

  0
LINE
  5
88
330
85
100
AcDbEntity
  8
FORMAT
 62
     0
100
AcDbLine
 10
0.0
 20
0.0
 30
0.0
 11
0.0
 21
2.5
 31
0.0
  0
LINE
  5
89
330
85
100
AcDbEntity
  8
FORMAT
 62
     0
100
AcDbLine
 10
0.0
 20
0.0
 30
0.0
 11
-2.5
 21
0.0
 31
0.0
  0
LINE
  5
8A
330
85
100
AcDbEntity
  8
FORMAT
 62
     0
100
AcDbLine
 10
0.0
 20
0.0
 30
0.0
 11
0.0
 21
-2.5
 31
0.0
  0
LINE
  5
8B
330
85
100
AcDbEntity
  8
FORMAT
 62
     0
100
AcDbLine
 10
0.0
 20
0.0
 30
0.0
 11
2.5
 21
0.0
 31
0.0
  0
LINE
  5
8C
330
85
100
AcDbEntity
  8
FORMAT
 62
     0
100
AcDbLine
 10
0.0
 20
5.0
 30
0.0
 11
0.0
 21
57.5
 31
0.0
  0
LINE
  5
8D
330
85
100
AcDbEntity
  8
FORMAT
 62
     0
100
AcDbLine
 10
-5.0
 20
0.0
 30
0.0
 11
-57.5
 21
0.0
 31
0.0
  0
LINE
  5
8E
330
85
100
AcDbEntity
  8
FORMAT
 62
     0
100
AcDbLine
 10
0.0
 20
-5.0
 30
0.0
 11
0.0
 21
-57.5
 31
0.0
  0
LINE
  5
8F
330
85
100
AcDbEntity
  8
FORMAT
 62
     0
100
AcDbLine
 10
5.0
 20
0.0
 30
0.0
 11
57.5
 21
0.0
 31
0.0
  0
ENDBLK
  5
87
330
85
100
AcDbEntity
  8
0
100
AcDbBlockEnd
  0
ENDSEC
  0
SECTION
  2
ENTITIES
  0
CIRCLE
  5
83
330
1F
100
AcDbEntity
  8
0
  6
Continuous
 62
     7
370
    25
100
AcDbCircle
 10
127.8025537254
 20
106.0321058177
 30
0.0
 40
45.00000000000001
  0
CIRCLE
  5
84
330
1F
100
AcDbEntity
  8
0
  6
Continuous
 62
     7
370
    25
100
AcDbCircle
 10
127.8025537254
 20
106.0321058177
 30
0.0
 40
55.00000000000002
  0
INSERT
  5
90
330
1F
100
AcDbEntity
  8
FORMAT
100
AcDbBlockReference
  2
SW_CENTERMARKSYMBOL_0
 10
127.8025537254
 20
106.0321058177
 30
0.0
  0
ARC
  5
91
330
1F
100
AcDbEntity
  8
0
  6
Continuous
 62
     7
370
    25
100
AcDbCircle
 10
126.2130367133
 20
349.2332174969
 30
0.0
 40
165.0
100
AcDbArc
 50
270.5519637876
 51
290.0577291499
  0
ARC
  5
92
330
1F
100
AcDbEntity
  8
0
  6
Continuous
 62
     7
370
    25
100
AcDbCircle
 10
129.3920707376
 20
349.2332174969
 30
0.0
 40
165.0
100
AcDbArc
 50
249.9422708501
 51
269.4480362124
  0
LINE
  5
93
330
1F
100
AcDbEntity
  8
0
  6
Continuous
 62
     7
370
    25
100
AcDbLine
 10
72.8025537254
 20
286.4003049461
 30
0.0
 11
72.8025537254
 21
194.24087393
 31
0.0
  0
LINE
  5
94
330
1F
100
AcDbEntity
  8
0
  6
Continuous
 62
     7
370
    25
100
AcDbLine
 10
182.8025537254
 20
194.24087393
 30
0.0
 11
182.8025537254
 21
286.4003049461
 31
0.0
  0
LINE
  5
95
330
1F
100
AcDbEntity
  8
0
  6
Continuous
 62
     7
370
    25
100
AcDbLine
 10
127.8025537254
 20
194.24087393
 30
0.0
 11
182.8025537254
 21
194.24087393
 31
0.0
  0
LINE
  5
96
330
1F
100
AcDbEntity
  8
0
  6
Continuous
 62
     7
370
    25
100
AcDbLine
 10
72.8025537254
 20
194.24087393
 30
0.0
 11
127.8025537254
 21
194.24087393
 31
0.0
  0
LINE
  5
97
330
1F
100
AcDbEntity
  8
0
  6
Continuous
 62
     7
370
    25
100
AcDbLine
 10
127.8025537254
 20
286.4003049461
 30
0.0
 11
182.8025537254
 21
286.4003049461
 31
0.0
  0
LINE
  5
98
330
1F
100
AcDbEntity
  8
0
  6
Continuous
 62
     7
370
    25
100
AcDbLine
 10
72.8025537254
 20
286.4003049461
 30
0.0
 11
127.8025537254
 21
286.4003049461
 31
0.0
  0
LINE
  5
99
330
1F
100
AcDbEntity
  8
0
  6
Continuous
 62
     7
370
    25
100
AcDbLine
 10
182.8025537254
 20
-99.7968948398
 30
0.0
 11
182.8025537254
 21
-7.6374638238
 31
0.0
  0
LINE
  5
9A
330
1F
100
AcDbEntity
  8
0
  6
Continuous
 62
     7
370
    25
100
AcDbLine
 10
72.8025537254
 20
-7.6374638238
 30
0.0
 11
72.8025537254
 21
-99.7968948398
 31
0.0
  0
ARC
  5
9B
330
1F
100
AcDbEntity
  8
0
  6
Continuous
 62
     7
370
    25
100
AcDbCircle
 10
129.3920707376
 20
-162.6298073906
 30
0.0
 40
165.0000000000001
100
AcDbArc
 50
90.5519637876
 51
110.0577291499
  0
ARC
  5
9C
330
1F
100
AcDbEntity
  8
0
  6
Continuous
 62
     7
370
    25
100
AcDbCircle
 10
126.2130367133
 20
-162.6298073906
 30
0.0
 40
165.0000000000001
100
AcDbArc
 50
69.9422708501
 51
89.4480362124
  0
LINE
  5
9D
330
1F
100
AcDbEntity
  8
0
  6
Continuous
 62
     7
370
    25
100
AcDbLine
 10
182.8025537254
 20
-99.7968948398
 30
0.0
 11
72.8025537254
 21
-99.7968948398
 31
0.0
  0
LINE
  5
9E
330
1F
100
AcDbEntity
  8
0
  6
Continuous
 62
     7
370
    25
100
AcDbLine
 10
182.8025537254
 20
-7.6374638238
 30
0.0
 11
72.8025537254
 21
-7.6374638238
 31
0.0
  0
ARC
  5
9F
330
1F
100
AcDbEntity
  8
0
  6
Continuous
 62
     7
370
    25
100
AcDbCircle
 10
395.8125000486
 20
107.6216228298
 30
0.0
 40
165.0
100
AcDbArc
 50
180.5519637876
 51
200.0577291499
  0
ARC
  5
A0
330
1F
100
AcDbEntity
  8
0
  6
Continuous
 62
     7
370
    25
100
AcDbCircle
 10
395.8125000486
 20
104.4425888055
 30
0.0
 40
165.0
100
AcDbArc
 50
159.9422708501
 51
179.4480362124
  0
LINE
  5
A1
330
1F
100
AcDbEntity
  8
0
  6
Continuous
 62
     7
370
    25
100
AcDbLine
 10
332.9795874978
 20
161.0321058177
 30
0.0
 11
240.8201564818
 21
161.0321058177
 31
0.0
  0
LINE
  5
A2
330
1F
100
AcDbEntity
  8
0
  6
Continuous
 62
     7
370
    25
100
AcDbLine
 10
240.8201564818
 20
51.0321058177
 30
0.0
 11
332.9795874978
 21
51.0321058177
 31
0.0
  0
LINE
  5
A3
330
1F
100
AcDbEntity
  8
0
  6
Continuous
 62
     7
370
    25
100
AcDbLine
 10
240.8201564818
 20
161.0321058177
 30
0.0
 11
240.8201564818
 21
51.0321058177
 31
0.0
  0
LINE
  5
A4
330
1F
100
AcDbEntity
  8
0
  6
Continuous
 62
     7
370
    25
100
AcDbLine
 10
332.9795874978
 20
161.0321058177
 30
0.0
 11
332.9795874978
 21
51.0321058177
 31
0.0
  0
ARC
  5
A5
330
1F
100
AcDbEntity
  8
0
  6
Continuous
 62
     7
370
    25
100
AcDbCircle
 10
-119.8435036773
 20
104.4425888055
 30
0.0
 40
165.0000000000001
100
AcDbArc
 50
0.5519637876
 51
20.0577291499
  0
ARC
  5
A6
330
1F
100
AcDbEntity
  8
0
  6
Continuous
 62
     7
370
    25
100
AcDbCircle
 10
-119.8435036773
 20
107.6216228298
 30
0.0
 40
165.0
100
AcDbArc
 50
339.9422708501
 51
359.4480362124
  0
LINE
  5
A7
330
1F
100
AcDbEntity
  8
0
  6
Continuous
 62
     7
370
    25
100
AcDbLine
 10
-57.0105911266
 20
51.0321058177
 30
0.0
 11
35.1488398895
 21
51.0321058177
 31
0.0
  0
LINE
  5
A8
330
1F
100
AcDbEntity
  8
0
  6
Continuous
 62
     7
370
    25
100
AcDbLine
 10
35.1488398895
 20
161.0321058177
 30
0.0
 11
-57.0105911266
 21
161.0321058177
 31
0.0
  0
LINE
  5
A9
330
1F
100
AcDbEntity
  8
0
  6
Continuous
 62
     7
370
    25
100
AcDbLine
 10
35.1488398895
 20
51.0321058177
 30
0.0
 11
35.1488398895
 21
161.0321058177
 31
0.0
  0
LINE
  5
AA
330
1F
100
AcDbEntity
  8
0
  6
Continuous
 62
     7
370
    25
100
AcDbLine
 10
-57.0105911266
 20
51.0321058177
 30
0.0
 11
-57.0105911266
 21
161.0321058177
 31
0.0
  0
LINE
  5
AB
330
1F
100
AcDbEntity
  8
0
  6
Continuous
 62
     7
370
    25
100
AcDbLine
 10
219.7147231989
 20
-83.0323401745
 30
0.0
 11
284.8812818207
 21
-120.6521937057
 31
0.0
  0
LINE
  5
AC
330
1F
100
AcDbEntity
  8
0
  6
Continuous
 62
     7
370
    25
100
AcDbLine
 10
339.8768121157
 20
-25.3868188438
 30
0.0
 11
274.7102534939
 21
12.2330346874
 31
0.0
  0
LWPOLYLINE
  5
AD
330
1F
100
AcDbEntity
  8
0
  6
Continuous
 62
     7
370
    25
100
AcDbPolyline
 90
      131
 70
   128
 43
0.0
 10
247.2124883464
 20
-80.3093973972
 10
249.0914378521
 20
-79.1722585412
 10
250.9659989841
 20
-77.9328867362
 10
252.8317936181
 20
-76.5941765923
 10
254.6844641043
 20
-75.1592547292
 10
256.5196834448
 20
-73.6314724735
 10
258.3331654
 20
-72.0143980312
 10
260.1206744986
 20
-70.3118081548
 10
261.8780359304
 20
-68.5276793217
 10
263.6011452962
 20
-66.6661784476
 10
265.2859781944
 20
-64.731653154
 10
266.9285996196
 20
-62.7286216143
 10
268.5251731533
 20
-60.6617620014
 10
270.0719699242
 20
-58.5359015619
 10
271.5653773166
 20
-56.3560053413
 10
273.0019074084
 20
-54.1271645881
 10
274.3782051171
 20
-51.8545848633
 10
275.6910560355
 20
-49.5435738821
 10
276.9373939395
 20
-47.1995291176
 10
278.1143079492
 20
-44.8279251952
 10
279.2190493273
 20
-42.4343011056
 10
280.2490378993
 20
-40.0242472688
 10
281.201868079
 20
-37.6033924772
 10
282.0753144874
 20
-35.1773907493
 10
282.86733715
 20
-32.7519081246
 10
283.5760862612
 20
-30.3326094302
 10
284.1999065044
 20
-27.9251450502
 10
284.7373409188
 20
-25.5351377292
 10
285.1871343012
 20
-23.1681694402
 10
285.5482361385
 20
-20.8297683471
 10
285.8198030605
 20
-18.5253958942
 10
286.00120081
 20
-16.26043405
 10
286.0920057244
 20
-14.0401727379
 10
286.0920057244
 20
-11.869797481
 10
286.00120081
 20
-9.7543772914
 10
285.8198030605
 20
-7.6988528308
 10
285.5482361385
 20
-5.708024872
 10
285.1871343012
 20
-3.7865430859
 10
284.7373409188
 20
-1.9388951821
 10
284.1999065044
 20
-0.1693964281
 10
283.5760862612
 20
1.5178204299
 10
282.86733715
 20
3.1188148187
 10
282.0753144874
 20
4.6298475418
 10
281.201868079
 20
6.0473895122
 10
280.2490378993
 20
7.3681299949
 10
279.2190493273
 20
8.5889843394
 10
278.1143079492
 20
9.7071011837
 10
276.9373939395
 20
10.7198691142
 10
275.6910560355
 20
11.6249227644
 10
274.3782051171
 20
12.4201483397
 10
273.0019074084
 20
13.1036885537
 10
271.5653773166
 20
13.6739469668
 10
270.0719699242
 20
14.1295917139
 10
268.5251731533
 20
14.4695586155
 10
266.9285996196
 20
14.6930536634
 10
265.2859781944
 20
14.7995548744
 10
263.6011452962
 20
14.78881351
 10
261.8780359304
 20
14.6608546571
 10
260.1206744986
 20
14.4159771697
 10
258.3331654
 20
14.0547529703
 10
256.5196834448
 20
13.578025715
 10
254.6844641043
 20
12.9869088222
 10
252.8317936181
 20
12.2827828728
 10
250.9659989841
 20
11.4672923857
 10
249.0914378521
 20
10.5423419767
 10
247.2124883464
 20
9.5100919102
 10
245.3335388408
 20
8.3729530542
 10
243.4589777088
 20
7.1335812491
 10
241.5931830748
 20
5.7948711052
 10
239.7405125886
 20
4.3599492422
 10
237.905293248
 20
2.8321669864
 10
236.0918112929
 20
1.2150925442
 10
234.3043021942
 20
-0.4874973323
 10
232.5469407625
 20
-2.2716261653
 10
230.8238313966
 20
-4.1331270394
 10
229.1389984985
 20
-6.0676523331
 10
227.4963770733
 20
-8.0706838728
 10
225.8998035395
 20
-10.1375434856
 10
224.3530067687
 20
-12.2634039251
 10
222.8595993762
 20
-14.4433001458
 10
221.4230692844
 20
-16.6721408989
 10
220.0467715757
 20
-18.9447206238
 10
218.7339206573
 20
-21.255731605
 10
217.4875827533
 20
-23.5997763694
 10
216.3106687436
 20
-25.9713802919
 10
215.2059273655
 20
-28.3650043815
 10
214.1759387935
 20
-30.7750582183
 10
213.2231086138
 20
-33.1959130099
 10
212.3496622054
 20
-35.6219147378
 10
211.5576395428
 20
-38.0473973624
 10
210.8488904317
 20
-40.4666960569
 10
210.2250701884
 20
-42.8741604369
 10
209.6876357741
 20
-45.2641677578
 10
209.2378423916
 20
-47.6311360469
 10
208.8767405544
 20
-49.9695371399
 10
208.6051736324
 20
-52.2739095929
 10
208.4237758828
 20
-54.5388714371
 10
208.3329709685
 20
-56.7591327492
 10
208.3329709685
 20
-58.9295080061
 10
208.4237758828
 20
-61.0449281957
 10
208.6051736324
 20
-63.1004526562
 10
208.8767405544
 20
-65.091280615
 10
209.2378423916
 20
-67.0127624012
 10
209.6876357741
 20
-68.8604103049
 10
210.2250701884
 20
-70.629909059
 10
210.8488904317
 20
-72.317125917
 10
211.5576395428
 20
-73.9181203058
 10
212.3496622054
 20
-75.4291530289
 10
213.2231086138
 20
-76.8466949992
 10
214.1759387935
 20
-78.1674354819
 10
215.2059273655
 20
-79.3882898264
 10
216.3106687436
 20
-80.5064066707
 10
217.4875827533
 20
-81.5191746012
 10
218.7339206573
 20
-82.4242282515
 10
220.0467715757
 20
-83.2194538267
 10
221.4230692844
 20
-83.9029940408
 10
222.8595993762
 20
-84.4732524538
 10
224.3530067687
 20
-84.9288972009
 10
225.8998035395
 20
-85.2688641026
 10
227.4963770733
 20
-85.4923591505
 10
229.1389984985
 20
-85.5988603614
 10
230.8238313966
 20
-85.588118997
 10
232.5469407625
 20
-85.4601601442
 10
234.3043021942
 20
-85.2152826567
 10
236.0918112929
 20
-84.8540584574
 10
237.905293248
 20
-84.377331202
 10
239.7405125886
 20
-83.7862143092
 10
241.5931830748
 20
-83.0820883599
 10
243.4589777088
 20
-82.2665978728
 10
245.3335388408
 20
-81.3416474637
 10
247.2124883464
 20
-80.3093973972
  0
LWPOLYLINE
  5
AE
330
1F
100
AcDbEntity
  8
0
  6
Continuous
 62
     7
370
    25
100
AcDbPolyline
 90
       50
 70
   128
 43
0.0
 10
312.3790469682
 20
-117.9292509285
 10
314.2579964738
 20
-116.7921120725
 10
316.1325576058
 20
-115.5527402674
 10
317.9983522398
 20
-114.2140301235
 10
319.851022726
 20
-112.7791082605
 10
321.6862420666
 20
-111.2513260047
 10
323.4997240217
 20
-109.6342515625
 10
325.2872331204
 20
-107.931661686
 10
327.0445945521
 20
-106.147532853
 10
328.767703918
 20
-104.2860319789
 10
330.4525368161
 20
-102.3515066852
 10
332.0951582413
 20
-100.3484751455
 10
333.6917317751
 20
-98.2816155327
 10
335.2385285459
 20
-96.1557550932
 10
336.7319359384
 20
-93.9758588725
 10
338.1684660302
 20
-91.7470181194
 10
339.5447637389
 20
-89.4744383945
 10
340.8576146573
 20
-87.1634274133
 10
342.1039525613
 20
-84.8193826489
 10
343.2808665709
 20
-82.4477787264
 10
344.3856079491
 20
-80.0541546368
 10
345.415596521
 20
-77.6441008
 10
346.3684267007
 20
-75.2232460084
 10
347.2418731092
 20
-72.7972442805
 10
348.0338957718
 20
-70.3717616559
 10
348.7426448829
 20
-67.9524629614
 10
349.3664651262
 20
-65.5449985814
 10
349.9038995405
 20
-63.1549912605
 10
350.353692923
 20
-60.7880229714
 10
350.7147947602
 20
-58.4496218784
 10
350.9863616822
 20
-56.1452494254
 10
351.1677594318
 20
-53.8802875812
 10
351.2585643461
 20
-51.6600262691
 10
351.2585643461
 20
-49.4896510122
 10
351.1677594318
 20
-47.3742308226
 10
350.9863616822
 20
-45.3187063621
 10
350.7147947602
 20
-43.3278784033
 10
350.353692923
 20
-41.4063966171
 10
349.9038995405
 20
-39.5587487134
 10
349.3664651262
 20
-37.7892499593
 10
348.7426448829
 20
-36.1020331013
 10
348.0338957718
 20
-34.5010387125
 10
347.2418731092
 20
-32.9900059894
 10
346.3684267007
 20
-31.5724640191
 10
345.415596521
 20
-30.2517235364
 10
344.3856079491
 20
-29.0308691919
 10
343.2808665709
 20
-27.9127523476
 10
342.1039525613
 20
-26.899984417
 10
340.8576146573
 20
-25.9949307668
 10
339.8768121157
 20
-25.3868188438
  0
LWPOLYLINE
  5
AF
330
1F
100
AcDbEntity
  8
0
  6
Continuous
 62
     7
370
    25
100
AcDbPolyline
 90
       18
 70
   128
 43
0.0
 10
284.8812818207
 20
-120.6521937057
 10
285.2133301975
 20
-120.839307358
 10
286.5896279061
 20
-121.522847572
 10
288.026157998
 20
-122.0931059851
 10
289.5195653904
 20
-122.5487507321
 10
291.0663621613
 20
-122.8887176338
 10
292.662935695
 20
-123.1122126817
 10
294.3055571202
 20
-123.2187138927
 10
295.9903900184
 20
-123.2079725283
 10
297.7134993842
 20
-123.0800136754
 10
299.470860816
 20
-122.835136188
 10
301.2583699146
 20
-122.4739119886
 10
303.0718518698
 20
-121.9971847333
 10
304.9070712103
 20
-121.4060678405
 10
306.7597416965
 20
-120.7019418911
 10
308.6255363305
 20
-119.886451404
 10
310.5000974625
 20
-118.9615009949
 10
312.3790469682
 20
-117.9292509285
  0
LWPOLYLINE
  5
B0
330
1F
100
AcDbEntity
  8
0
  6
Continuous
 62
     7
370
    25
100
AcDbPolyline
 90
      119
 70
   128
 43
0.0
 10
247.2124883464
 20
-72.1439892784
 10
248.9060075797
 20
-71.1142635278
 10
250.5947263488
 20
-69.9833008327
 10
252.2738577968
 20
-68.7543070296
 10
253.9386422431
 20
-67.4307658351
 10
255.5843606755
 20
-66.0164289705
 10
257.2063481262
 20
-64.5153055273
 10
258.8000068955
 20
-62.931650603
 10
260.3608195846
 20
-61.2699532394
 10
261.8843619002
 20
-59.5349236984
 10
263.3663151962
 20
-57.7314801097
 10
264.802478715
 20
-55.86473453
 10
266.188781495
 20
-53.9399784525
 10
267.5212939103
 20
-51.9626678075
 10
268.7962388098
 20
-49.9384074968
 10
270.0100022235
 20
-47.8729355061
 10
271.1591436074
 20
-45.7721066402
 10
272.2404055952
 20
-43.6418759269
 10
273.2507232323
 20
-41.4882817364
 10
274.1872326637
 20
-39.3174286656
 10
275.0472792516
 20
-37.1354702333
 10
275.8284251006
 20
-34.9485914376
 10
276.5284559677
 20
-32.7629912243
 10
277.1453875396
 20
-30.5848649145
 10
277.6774710567
 20
-28.420386644
 10
278.1231982703
 20
-26.2756918614
 10
278.4813057183
 20
-24.1568599373
 10
278.7507783062
 20
-22.0698969308
 10
278.9308521847
 20
-20.0207185655
 10
279.0210169148
 20
-18.0151334599
 10
279.0210169148
 20
-16.058826663
 10
278.9308521847
 20
-14.157343539
 10
278.7507783062
 20
-12.3160740483
 10
278.4813057183
 20
-10.5402374693
 10
278.1231982703
 20
-8.8348676039
 10
277.6774710567
 20
-7.2047985081
 10
277.1453875396
 20
-5.6546507898
 10
276.5284559677
 20
-4.1888185114
 10
275.8284251006
 20
-2.8114567335
 10
275.0472792516
 20
-1.5264697377
 10
274.1872326637
 20
-0.3374999594
 10
273.2507232323
 20
0.7520823374
 10
272.2404055952
 20
1.7391886134
 10
271.1591436074
 20
2.6210208086
 10
270.0100022235
 20
3.3950792737
 10
268.7962388098
 20
4.0591698561
 10
267.5212939103
 20
4.6114101187
 10
266.188781495
 20
5.0502346766
 10
264.802478715
 20
5.3743996339
 10
263.3663151962
 20
5.5829861097
 10
261.8843619002
 20
5.6754028431
 10
260.3608195846
 20
5.6513878688
 10
258.8000068955
 20
5.5110092598
 10
257.2063481262
 20
5.2546649346
 10
255.5843606755
 20
4.8830815289
 10
253.9386422431
 20
4.3973123364
 10
252.2738577968
 20
3.7987343226
 10
250.5947263488
 20
3.0890442218
 10
248.9060075797
 20
2.2702537279
 10
247.2124883464
 20
1.3446837913
 10
245.5189691131
 20
0.3149580407
 10
243.830250344
 20
-0.8160046544
 10
242.1511188961
 20
-2.0449984574
 10
240.4863344497
 20
-3.3685396519
 10
238.8406160173
 20
-4.7828765165
 10
237.2186285667
 20
-6.2839999597
 10
235.6249697973
 20
-7.8676548841
 10
234.0641571083
 20
-9.5293522476
 10
232.5406147926
 20
-11.2643817886
 10
231.0586614966
 20
-13.0678253774
 10
229.6224979778
 20
-14.9345709571
 10
228.2361951979
 20
-16.8593270345
 10
226.9036827826
 20
-18.8366376796
 10
225.6287378831
 20
-20.8608979903
 10
224.4149744693
 20
-22.926369981
 10
223.2658330855
 20
-25.0271988468
 10
222.1845710977
 20
-27.1574295602
 10
221.1742534605
 20
-29.3110237506
 10
220.2377440291
 20
-31.4818768215
 10
219.3776974412
 20
-33.6638352538
 10
218.5965515923
 20
-35.8507140494
 10
217.8965207251
 20
-38.0363142627
 10
217.2795891532
 20
-40.2144405725
 10
216.7475056362
 20
-42.3789188431
 10
216.3017784226
 20
-44.5236136256
 10
215.9436709746
 20
-46.6424455498
 10
215.6741983866
 20
-48.7294085562
 10
215.4941245081
 20
-50.7785869216
 10
215.403959778
 20
-52.7841720271
 10
215.403959778
 20
-54.740478824
 10
215.4941245081
 20
-56.6419619481
 10
215.6741983866
 20
-58.4832314388
 10
215.9436709746
 20
-60.2590680177
 10
216.3017784226
 20
-61.9644378832
 10
216.7475056362
 20
-63.594506979
 10
217.2795891532
 20
-65.1446546972
 10
217.8965207251
 20
-66.6104869757
 10
218.5965515923
 20
-67.9878487536
 10
219.3776974412
 20
-69.2728357493
 10
220.2377440291
 20
-70.4618055276
 10
221.1742534605
 20
-71.5513878245
 10
222.1845710977
 20
-72.5384941005
 10
223.2658330855
 20
-73.4203262956
 10
224.4149744693
 20
-74.1943847608
 10
225.6287378831
 20
-74.8584753432
 10
226.9036827826
 20
-75.4107156058
 10
228.2361951979
 20
-75.8495401637
 10
229.6224979778
 20
-76.173705121
 10
231.0586614966
 20
-76.3822915968
 10
232.5406147926
 20
-76.4747083302
 10
234.0641571083
 20
-76.4506933559
 10
235.6249697973
 20
-76.3103147469
 10
237.2186285667
 20
-76.0539704216
 10
238.8406160173
 20
-75.682387016
 10
240.4863344497
 20
-75.1966178235
 10
242.1511188961
 20
-74.5980398096
 10
243.830250344
 20
-73.8883497089
 10
245.5189691131
 20
-73.0695592149
 10
247.2124883464
 20
-72.1439892784
  0
ENDSEC
  0
SECTION
  2
OBJECTS
  0
DICTIONARY
  5
C
330
0
100
AcDbDictionary
281
     1
  3
ACAD_GROUP
350
D
  3
ACAD_LAYOUT
350
1A
  3
ACAD_MLINESTYLE
350
17
  3
ACAD_PLOTSETTINGS
350
19
  3
ACAD_PLOTSTYLENAME
350
E
  3
ACAD_SCALELIST
350
47
  3
DWGPROPS
350
B1
  0
DICTIONARY
  5
D
102
{ACAD_REACTORS
330
C
102
}
330
C
100
AcDbDictionary
281
     1
  0
DICTIONARY
  5
1A
102
{ACAD_REACTORS
330
C
102
}
330
C
100
AcDbDictionary
281
     1
  3
Layout1
350
1E
  3
Layout2
350
26
  3
Model
350
22
  0
DICTIONARY
  5
17
102
{ACAD_REACTORS
330
C
102
}
330
C
100
AcDbDictionary
281
     1
  3
Standard
350
18
  0
DICTIONARY
  5
19
102
{ACAD_REACTORS
330
C
102
}
330
C
100
AcDbDictionary
281
     1
  0
ACDBDICTIONARYWDFLT
  5
E
102
{ACAD_REACTORS
330
C
102
}
330
C
100
AcDbDictionary
281
     1
  3
Normal
350
F
100
AcDbDictionaryWithDefault
340
F
  0
DICTIONARY
  5
47
102
{ACAD_REACTORS
330
C
102
}
330
C
100
AcDbDictionary
281
     1
  3
A0
350
48
  3
A1
350
49
  3
A2
350
4A
  3
A3
350
4B
  3
A4
350
4C
  3
A5
350
4D
  3
A6
350
4E
  3
A7
350
4F
  3
A8
350
50
  3
A9
350
51
  3
B0
350
52
  3
B1
350
53
  3
B2
350
54
  3
B3
350
55
  3
B4
350
56
  3
B5
350
57
  3
B6
350
58
  3
B7
350
59
  3
B8
350
5A
  3
B9
350
5B
  3
C0
350
5C
  3
C1
350
5D
  3
C2
350
5E
  3
C3
350
5F
  3
C4
350
60
  3
C5
350
61
  3
C6
350
62
  3
C7
350
63
  3
C8
350
64
  3
C9
350
65
  3
D0
350
66
  3
D1
350
67
  3
D2
350
68
  0
XRECORD
  5
B1
102
{ACAD_REACTORS
330
C
102
}
330
C
100
AcDbXrecord
280
     1
  1
DWGPROPS COOKIE
  2

  3

  4

  6

  7

  8
b.kav
  9

300
=
301
=
302
=
303
=
304
=
305
=
306
=
307
=
308
=
309
=
 40
0.0
 41
2460697.415921042
 42
2460697.415921169
  1

 90
        0
  0
LAYOUT
  5
1E
102
{ACAD_REACTORS
330
1A
102
}
330
1A
100
AcDbPlotSettings
  1

  2
none_device
  4

  6

 40
0.0
 41
0.0
 42
0.0
 43
0.0
 44
0.0
 45
0.0
 46
0.0
 47
0.0
 48
0.0
 49
0.0
140
0.0
141
0.0
142
1.0
143
1.0
 70
   688
 72
     1
 73
     0
 74
     5
  7

 75
    16
147
1.0
148
0.0
149
0.0
100
AcDbLayout
  1
Layout1
 70
     1
 71
     1
 10
0.0
 20
0.0
 11
420.0
 21
297.0
 12
0.0
 22
0.0
 32
0.0
 14
1.0000000000E+20
 24
1.0000000000E+20
 34
1.0000000000E+20
 15
-1.0000000000E+20
 25
-1.0000000000E+20
 35
-1.0000000000E+20
146
0.0
 13
0.0
 23
0.0
 33
0.0
 16
1.0
 26
0.0
 36
0.0
 17
0.0
 27
1.0
 37
0.0
 76
     0
330
1B
  0
LAYOUT
  5
26
102
{ACAD_REACTORS
330
1A
102
}
330
1A
100
AcDbPlotSettings
  1

  2
none_device
  4

  6

 40
0.0
 41
0.0
 42
0.0
 43
0.0
 44
0.0
 45
0.0
 46
0.0
 47
0.0
 48
0.0
 49
0.0
140
0.0
141
0.0
142
1.0
143
1.0
 70
   688
 72
     1
 73
     0
 74
     5
  7

 75
    16
147
1.0
148
0.0
149
0.0
100
AcDbLayout
  1
Layout2
 70
     1
 71
     2
 10
0.0
 20
0.0
 11
0.0
 21
0.0
 12
0.0
 22
0.0
 32
0.0
 14
0.0
 24
0.0
 34
0.0
 15
0.0
 25
0.0
 35
0.0
146
0.0
 13
0.0
 23
0.0
 33
0.0
 16
1.0
 26
0.0
 36
0.0
 17
0.0
 27
1.0
 37
0.0
 76
     0
330
23
  0
LAYOUT
  5
22
102
{ACAD_REACTORS
330
1A
102
}
330
1A
100
AcDbPlotSettings
  1

  2
none_device
  4
Letter_(8.50_x_11.00_Inches)
  6

 40
6.35
 41
6.35
 42
6.35000508
 43
6.35000508
 44
215.9
 45
279.4
 46
0.0
 47
0.0
 48
0.0
 49
0.0
140
0.0
141
0.0
142
1.0
143
1.0
 70
  1712
 72
     1
 73
     0
 74
     0
  7

 75
     0
147
1.0
148
0.0
149
0.0
100
AcDbLayout
  1
Model
 70
     1
 71
     0
 10
0.0
 20
0.0
 11
279.4
 21
215.9
 12
0.0
 22
0.0
 32
0.0
 14
0.0
 24
0.0
 34
0.0
 15
279.4
 25
215.9
 35
0.0
146
0.0
 13
0.0
 23
0.0
 33
0.0
 16
1.0
 26
0.0
 36
0.0
 17
0.0
 27
1.0
 37
0.0
 76
     0
330
1F
331
29
  0
MLINESTYLE
  5
18
102
{ACAD_REACTORS
330
17
102
}
330
17
100
AcDbMlineStyle
  2
Standard
 70
     0
  3

 62
   256
 51
90.0
 52
90.0
 71
     2
 49
0.5
 62
   256
  6
BYLAYER
 49
-0.5
 62
   256
  6
BYLAYER
  0
ACDBPLACEHOLDER
  5
F
102
{ACAD_REACTORS
330
E
102
}
330
E
  0
SCALE
  5
48
102
{ACAD_REACTORS
330
47
102
}
330
47
100
AcDbScale
 70
     0
300
1:1
140
1.0
141
1.0
290
     1
  0
SCALE
  5
49
102
{ACAD_REACTORS
330
47
102
}
330
47
100
AcDbScale
 70
     0
300
1:2
140
1.0
141
2.0
290
     0
  0
SCALE
  5
4A
102
{ACAD_REACTORS
330
47
102
}
330
47
100
AcDbScale
 70
     0
300
1:4
140
1.0
141
4.0
290
     0
  0
SCALE
  5
4B
102
{ACAD_REACTORS
330
47
102
}
330
47
100
AcDbScale
 70
     0
300
1:5
140
1.0
141
5.0
290
     0
  0
SCALE
  5
4C
102
{ACAD_REACTORS
330
47
102
}
330
47
100
AcDbScale
 70
     0
300
1:8
140
1.0
141
8.0
290
     0
  0
SCALE
  5
4D
102
{ACAD_REACTORS
330
47
102
}
330
47
100
AcDbScale
 70
     0
300
1:10
140
1.0
141
10.0
290
     0
  0
SCALE
  5
4E
102
{ACAD_REACTORS
330
47
102
}
330
47
100
AcDbScale
 70
     0
300
1:16
140
1.0
141
16.0
290
     0
  0
SCALE
  5
4F
102
{ACAD_REACTORS
330
47
102
}
330
47
100
AcDbScale
 70
     0
300
1:20
140
1.0
141
20.0
290
     0
  0
SCALE
  5
50
102
{ACAD_REACTORS
330
47
102
}
330
47
100
AcDbScale
 70
     0
300
1:30
140
1.0
141
30.0
290
     0
  0
SCALE
  5
51
102
{ACAD_REACTORS
330
47
102
}
330
47
100
AcDbScale
 70
     0
300
1:40
140
1.0
141
40.0
290
     0
  0
SCALE
  5
52
102
{ACAD_REACTORS
330
47
102
}
330
47
100
AcDbScale
 70
     0
300
1:50
140
1.0
141
50.0
290
     0
  0
SCALE
  5
53
102
{ACAD_REACTORS
330
47
102
}
330
47
100
AcDbScale
 70
     0
300
1:100
140
1.0
141
100.0
290
     0
  0
SCALE
  5
54
102
{ACAD_REACTORS
330
47
102
}
330
47
100
AcDbScale
 70
     0
300
2:1
140
2.0
141
1.0
290
     0
  0
SCALE
  5
55
102
{ACAD_REACTORS
330
47
102
}
330
47
100
AcDbScale
 70
     0
300
4:1
140
4.0
141
1.0
290
     0
  0
SCALE
  5
56
102
{ACAD_REACTORS
330
47
102
}
330
47
100
AcDbScale
 70
     0
300
8:1
140
8.0
141
1.0
290
     0
  0
SCALE
  5
57
102
{ACAD_REACTORS
330
47
102
}
330
47
100
AcDbScale
 70
     0
300
10:1
140
10.0
141
1.0
290
     0
  0
SCALE
  5
58
102
{ACAD_REACTORS
330
47
102
}
330
47
100
AcDbScale
 70
     0
300
100:1
140
100.0
141
1.0
290
     0
  0
SCALE
  5
59
102
{ACAD_REACTORS
330
47
102
}
330
47
100
AcDbScale
 70
     0
300
1/128" = 1'-0"
140
0.0078125
141
12.0
290
     0
  0
SCALE
  5
5A
102
{ACAD_REACTORS
330
47
102
}
330
47
100
AcDbScale
 70
     0
300
1/64" = 1'-0"
140
0.015625
141
12.0
290
     0
  0
SCALE
  5
5B
102
{ACAD_REACTORS
330
47
102
}
330
47
100
AcDbScale
 70
     0
300
1/32" = 1'-0"
140
0.03125
141
12.0
290
     0
  0
SCALE
  5
5C
102
{ACAD_REACTORS
330
47
102
}
330
47
100
AcDbScale
 70
     0
300
1/16" = 1'-0"
140
0.0625
141
12.0
290
     0
  0
SCALE
  5
5D
102
{ACAD_REACTORS
330
47
102
}
330
47
100
AcDbScale
 70
     0
300
3/32" = 1'-0"
140
0.09375
141
12.0
290
     0
  0
SCALE
  5
5E
102
{ACAD_REACTORS
330
47
102
}
330
47
100
AcDbScale
 70
     0
300
1/8" = 1'-0"
140
0.125
141
12.0
290
     0
  0
SCALE
  5
5F
102
{ACAD_REACTORS
330
47
102
}
330
47
100
AcDbScale
 70
     0
300
3/16" = 1'-0"
140
0.1875
141
12.0
290
     0
  0
SCALE
  5
60
102
{ACAD_REACTORS
330
47
102
}
330
47
100
AcDbScale
 70
     0
300
1/4" = 1'-0"
140
0.25
141
12.0
290
     0
  0
SCALE
  5
61
102
{ACAD_REACTORS
330
47
102
}
330
47
100
AcDbScale
 70
     0
300
3/8" = 1'-0"
140
0.375
141
12.0
290
     0
  0
SCALE
  5
62
102
{ACAD_REACTORS
330
47
102
}
330
47
100
AcDbScale
 70
     0
300
1/2" = 1'-0"
140
0.5
141
12.0
290
     0
  0
SCALE
  5
63
102
{ACAD_REACTORS
330
47
102
}
330
47
100
AcDbScale
 70
     0
300
3/4" = 1'-0"
140
0.75
141
12.0
290
     0
  0
SCALE
  5
64
102
{ACAD_REACTORS
330
47
102
}
330
47
100
AcDbScale
 70
     0
300
1" = 1'-0"
140
1.0
141
12.0
290
     0
  0
SCALE
  5
65
102
{ACAD_REACTORS
330
47
102
}
330
47
100
AcDbScale
 70
     0
300
1-1/2" = 1'-0"
140
1.5
141
12.0
290
     0
  0
SCALE
  5
66
102
{ACAD_REACTORS
330
47
102
}
330
47
100
AcDbScale
 70
     0
300
3" = 1'-0"
140
3.0
141
12.0
290
     0
  0
SCALE
  5
67
102
{ACAD_REACTORS
330
47
102
}
330
47
100
AcDbScale
 70
     0
300
6" = 1'-0"
140
6.0
141
12.0
290
     0
  0
SCALE
  5
68
102
{ACAD_REACTORS
330
47
102
}
330
47
100
AcDbScale
 70
     0
300
1'-0" = 1'-0"
140
12.0
141
12.0
290
     0
  0
ENDSEC
  0
EOF
